ISO-10303-21;
HEADER;
/* Generated by software containing ST-Developer
 * from STEP Tools, Inc. (www.steptools.com) 
 */

FILE_DESCRIPTION(
/* description */ (''),
/* implementation_level */ '2;1');

FILE_NAME(
/* name */ 
'D:\\Documents\\Projects\\Linear Slider\\CAD\\3-Axis Slider CAD STEP E
xports\\127 x 146.05 x 12.7mm Printable Bearing Part 1.stp',
/* time_stamp */ '2020-09-01T18:57:05+01:00',
/* author */ ('isaac879'),
/* organization */ (''),
/* preprocessor_version */ 'ST-DEVELOPER v18',
/* originating_system */ 'Autodesk Inventor 2020',
/* authorisation */ '');

FILE_SCHEMA (('AUTOMOTIVE_DESIGN { 1 0 10303 214 3 1 1 }'));
ENDSEC;

DATA;
#10=MECHANICAL_DESIGN_GEOMETRIC_PRESENTATION_REPRESENTATION('',(#13),#429);
#11=SHAPE_REPRESENTATION_RELATIONSHIP('SRR','None',#436,#12);
#12=ADVANCED_BREP_SHAPE_REPRESENTATION('',(#14),#428);
#13=STYLED_ITEM('',(#445),#14);
#14=MANIFOLD_SOLID_BREP('Solid1',#221);
#15=TOROIDAL_SURFACE('',#262,68.2625,3.05);
#16=CYLINDRICAL_SURFACE('',#248,73.025);
#17=CYLINDRICAL_SURFACE('',#256,68.7625);
#18=CYLINDRICAL_SURFACE('',#260,69.2625);
#19=CIRCLE('',#244,73.025);
#20=CIRCLE('',#245,72.425);
#21=CIRCLE('',#247,68.9625);
#22=CIRCLE('',#249,73.025);
#23=CIRCLE('',#251,72.425);
#24=CIRCLE('',#253,69.4625);
#25=CIRCLE('',#255,68.7625);
#26=CIRCLE('',#257,68.7625);
#27=CIRCLE('',#259,69.2625);
#28=CIRCLE('',#261,69.2625);
#29=CONICAL_SURFACE('',#243,72.725,0.785398163397445);
#30=CONICAL_SURFACE('',#250,72.725,0.785398163397444);
#31=CONICAL_SURFACE('',#254,68.8625,0.785398163397438);
#32=CONICAL_SURFACE('',#258,69.3625,0.785398163397437);
#33=FACE_OUTER_BOUND('',#45,.T.);
#34=FACE_OUTER_BOUND('',#46,.T.);
#35=FACE_OUTER_BOUND('',#47,.T.);
#36=FACE_OUTER_BOUND('',#48,.T.);
#37=FACE_OUTER_BOUND('',#49,.T.);
#38=FACE_OUTER_BOUND('',#50,.T.);
#39=FACE_OUTER_BOUND('',#51,.T.);
#40=FACE_OUTER_BOUND('',#52,.T.);
#41=FACE_OUTER_BOUND('',#53,.T.);
#42=FACE_OUTER_BOUND('',#54,.T.);
#43=FACE_OUTER_BOUND('',#55,.T.);
#44=FACE_OUTER_BOUND('',#56,.T.);
#45=EDGE_LOOP('',(#145,#146,#147,#148,#149,#150,#151,#152,#153,#154));
#46=EDGE_LOOP('',(#155,#156,#157,#158,#159,#160,#161,#162,#163,#164));
#47=EDGE_LOOP('',(#165,#166,#167,#168));
#48=EDGE_LOOP('',(#169,#170,#171,#172));
#49=EDGE_LOOP('',(#173,#174,#175,#176));
#50=EDGE_LOOP('',(#177,#178,#179,#180));
#51=EDGE_LOOP('',(#181,#182,#183,#184));
#52=EDGE_LOOP('',(#185,#186,#187,#188));
#53=EDGE_LOOP('',(#189,#190,#191,#192));
#54=EDGE_LOOP('',(#193,#194,#195,#196));
#55=EDGE_LOOP('',(#197,#198,#199,#200));
#56=EDGE_LOOP('',(#201,#202,#203,#204));
#57=B_SPLINE_CURVE_WITH_KNOTS('',3,(#339,#340,#341,#342,#343,#344,#345,
#346,#347,#348,#349,#350,#351,#352,#353,#354,#355,#356,#357),
 .UNSPECIFIED.,.F.,.F.,(4,2,2,2,3,2,2,2,4),(1.40268639640057,1.46800439167934,
1.58092781228446,1.69385121491091,1.80677460334454,1.91969799177817,2.03262139440461,
2.14554481500974,2.16299948060938),.UNSPECIFIED.);
#58=B_SPLINE_CURVE_WITH_KNOTS('',3,(#382,#383,#384,#385,#386,#387,#388,
#389,#390,#391,#392,#393,#394,#395,#396,#397,#398,#399,#400),
 .UNSPECIFIED.,.F.,.F.,(4,2,2,2,3,2,2,2,4),(1.45054972607969,1.46800439167934,
1.58092781228446,1.69385121491091,1.80677460334454,1.91969799177817,2.03262139440461,
2.14554481500974,2.2108628102885),.UNSPECIFIED.);
#59=LINE('',#331,#77);
#60=LINE('',#333,#78);
#61=LINE('',#335,#79);
#62=LINE('',#337,#80);
#63=LINE('',#359,#81);
#64=LINE('',#361,#82);
#65=LINE('',#363,#83);
#66=LINE('',#365,#84);
#67=LINE('',#366,#85);
#68=LINE('',#370,#86);
#69=LINE('',#372,#87);
#70=LINE('',#374,#88);
#71=LINE('',#376,#89);
#72=LINE('',#378,#90);
#73=LINE('',#380,#91);
#74=LINE('',#402,#92);
#75=LINE('',#404,#93);
#76=LINE('',#405,#94);
#77=VECTOR('',#267,10.);
#78=VECTOR('',#268,10.);
#79=VECTOR('',#269,10.);
#80=VECTOR('',#270,10.);
#81=VECTOR('',#271,10.);
#82=VECTOR('',#272,10.);
#83=VECTOR('',#273,10.);
#84=VECTOR('',#274,10.);
#85=VECTOR('',#275,10.);
#86=VECTOR('',#278,10.);
#87=VECTOR('',#279,10.);
#88=VECTOR('',#280,10.);
#89=VECTOR('',#281,10.);
#90=VECTOR('',#282,10.);
#91=VECTOR('',#283,10.);
#92=VECTOR('',#284,10.);
#93=VECTOR('',#285,10.);
#94=VECTOR('',#286,10.);
#95=VERTEX_POINT('',#329);
#96=VERTEX_POINT('',#330);
#97=VERTEX_POINT('',#332);
#98=VERTEX_POINT('',#334);
#99=VERTEX_POINT('',#336);
#100=VERTEX_POINT('',#338);
#101=VERTEX_POINT('',#358);
#102=VERTEX_POINT('',#360);
#103=VERTEX_POINT('',#362);
#104=VERTEX_POINT('',#364);
#105=VERTEX_POINT('',#368);
#106=VERTEX_POINT('',#369);
#107=VERTEX_POINT('',#371);
#108=VERTEX_POINT('',#373);
#109=VERTEX_POINT('',#375);
#110=VERTEX_POINT('',#377);
#111=VERTEX_POINT('',#379);
#112=VERTEX_POINT('',#381);
#113=VERTEX_POINT('',#401);
#114=VERTEX_POINT('',#403);
#115=EDGE_CURVE('',#95,#96,#59,.T.);
#116=EDGE_CURVE('',#97,#95,#60,.T.);
#117=EDGE_CURVE('',#98,#97,#61,.T.);
#118=EDGE_CURVE('',#99,#98,#62,.T.);
#119=EDGE_CURVE('',#100,#99,#57,.T.);
#120=EDGE_CURVE('',#101,#100,#63,.T.);
#121=EDGE_CURVE('',#102,#101,#64,.T.);
#122=EDGE_CURVE('',#103,#102,#65,.T.);
#123=EDGE_CURVE('',#104,#103,#66,.T.);
#124=EDGE_CURVE('',#96,#104,#67,.T.);
#125=EDGE_CURVE('',#105,#106,#68,.T.);
#126=EDGE_CURVE('',#107,#105,#69,.T.);
#127=EDGE_CURVE('',#108,#107,#70,.T.);
#128=EDGE_CURVE('',#109,#108,#71,.T.);
#129=EDGE_CURVE('',#110,#109,#72,.T.);
#130=EDGE_CURVE('',#111,#110,#73,.T.);
#131=EDGE_CURVE('',#112,#111,#58,.T.);
#132=EDGE_CURVE('',#113,#112,#74,.T.);
#133=EDGE_CURVE('',#114,#113,#75,.T.);
#134=EDGE_CURVE('',#106,#114,#76,.T.);
#135=EDGE_CURVE('',#107,#104,#19,.T.);
#136=EDGE_CURVE('',#103,#108,#20,.T.);
#137=EDGE_CURVE('',#109,#102,#21,.T.);
#138=EDGE_CURVE('',#96,#105,#22,.T.);
#139=EDGE_CURVE('',#106,#95,#23,.T.);
#140=EDGE_CURVE('',#97,#114,#24,.T.);
#141=EDGE_CURVE('',#101,#110,#25,.T.);
#142=EDGE_CURVE('',#111,#100,#26,.T.);
#143=EDGE_CURVE('',#113,#98,#27,.T.);
#144=EDGE_CURVE('',#112,#99,#28,.T.);
#145=ORIENTED_EDGE('',*,*,#115,.F.);
#146=ORIENTED_EDGE('',*,*,#116,.F.);
#147=ORIENTED_EDGE('',*,*,#117,.F.);
#148=ORIENTED_EDGE('',*,*,#118,.F.);
#149=ORIENTED_EDGE('',*,*,#119,.F.);
#150=ORIENTED_EDGE('',*,*,#120,.F.);
#151=ORIENTED_EDGE('',*,*,#121,.F.);
#152=ORIENTED_EDGE('',*,*,#122,.F.);
#153=ORIENTED_EDGE('',*,*,#123,.F.);
#154=ORIENTED_EDGE('',*,*,#124,.F.);
#155=ORIENTED_EDGE('',*,*,#125,.F.);
#156=ORIENTED_EDGE('',*,*,#126,.F.);
#157=ORIENTED_EDGE('',*,*,#127,.F.);
#158=ORIENTED_EDGE('',*,*,#128,.F.);
#159=ORIENTED_EDGE('',*,*,#129,.F.);
#160=ORIENTED_EDGE('',*,*,#130,.F.);
#161=ORIENTED_EDGE('',*,*,#131,.F.);
#162=ORIENTED_EDGE('',*,*,#132,.F.);
#163=ORIENTED_EDGE('',*,*,#133,.F.);
#164=ORIENTED_EDGE('',*,*,#134,.F.);
#165=ORIENTED_EDGE('',*,*,#127,.T.);
#166=ORIENTED_EDGE('',*,*,#135,.T.);
#167=ORIENTED_EDGE('',*,*,#123,.T.);
#168=ORIENTED_EDGE('',*,*,#136,.T.);
#169=ORIENTED_EDGE('',*,*,#128,.T.);
#170=ORIENTED_EDGE('',*,*,#136,.F.);
#171=ORIENTED_EDGE('',*,*,#122,.T.);
#172=ORIENTED_EDGE('',*,*,#137,.F.);
#173=ORIENTED_EDGE('',*,*,#126,.T.);
#174=ORIENTED_EDGE('',*,*,#138,.F.);
#175=ORIENTED_EDGE('',*,*,#124,.T.);
#176=ORIENTED_EDGE('',*,*,#135,.F.);
#177=ORIENTED_EDGE('',*,*,#125,.T.);
#178=ORIENTED_EDGE('',*,*,#139,.T.);
#179=ORIENTED_EDGE('',*,*,#115,.T.);
#180=ORIENTED_EDGE('',*,*,#138,.T.);
#181=ORIENTED_EDGE('',*,*,#134,.T.);
#182=ORIENTED_EDGE('',*,*,#140,.F.);
#183=ORIENTED_EDGE('',*,*,#116,.T.);
#184=ORIENTED_EDGE('',*,*,#139,.F.);
#185=ORIENTED_EDGE('',*,*,#129,.T.);
#186=ORIENTED_EDGE('',*,*,#137,.T.);
#187=ORIENTED_EDGE('',*,*,#121,.T.);
#188=ORIENTED_EDGE('',*,*,#141,.T.);
#189=ORIENTED_EDGE('',*,*,#130,.T.);
#190=ORIENTED_EDGE('',*,*,#141,.F.);
#191=ORIENTED_EDGE('',*,*,#120,.T.);
#192=ORIENTED_EDGE('',*,*,#142,.F.);
#193=ORIENTED_EDGE('',*,*,#133,.T.);
#194=ORIENTED_EDGE('',*,*,#143,.T.);
#195=ORIENTED_EDGE('',*,*,#117,.T.);
#196=ORIENTED_EDGE('',*,*,#140,.T.);
#197=ORIENTED_EDGE('',*,*,#132,.T.);
#198=ORIENTED_EDGE('',*,*,#144,.T.);
#199=ORIENTED_EDGE('',*,*,#118,.T.);
#200=ORIENTED_EDGE('',*,*,#143,.F.);
#201=ORIENTED_EDGE('',*,*,#131,.T.);
#202=ORIENTED_EDGE('',*,*,#142,.T.);
#203=ORIENTED_EDGE('',*,*,#119,.T.);
#204=ORIENTED_EDGE('',*,*,#144,.F.);
#205=PLANE('',#241);
#206=PLANE('',#242);
#207=PLANE('',#246);
#208=PLANE('',#252);
#209=ADVANCED_FACE('',(#33),#205,.F.);
#210=ADVANCED_FACE('',(#34),#206,.F.);
#211=ADVANCED_FACE('',(#35),#29,.T.);
#212=ADVANCED_FACE('',(#36),#207,.F.);
#213=ADVANCED_FACE('',(#37),#16,.T.);
#214=ADVANCED_FACE('',(#38),#30,.T.);
#215=ADVANCED_FACE('',(#39),#208,.T.);
#216=ADVANCED_FACE('',(#40),#31,.F.);
#217=ADVANCED_FACE('',(#41),#17,.F.);
#218=ADVANCED_FACE('',(#42),#32,.F.);
#219=ADVANCED_FACE('',(#43),#18,.F.);
#220=ADVANCED_FACE('',(#44),#15,.F.);
#221=CLOSED_SHELL('',(#209,#210,#211,#212,#213,#214,#215,#216,#217,#218,
#219,#220));
#222=DERIVED_UNIT_ELEMENT(#224,1.);
#223=DERIVED_UNIT_ELEMENT(#431,3.);
#224=(
MASS_UNIT()
NAMED_UNIT(*)
SI_UNIT($,.GRAM.)
);
#225=DERIVED_UNIT((#222,#223));
#226=MEASURE_REPRESENTATION_ITEM('density measure',
POSITIVE_RATIO_MEASURE(1.),#225);
#227=PROPERTY_DEFINITION_REPRESENTATION(#232,#229);
#228=PROPERTY_DEFINITION_REPRESENTATION(#233,#230);
#229=REPRESENTATION('material name',(#231),#428);
#230=REPRESENTATION('density',(#226),#428);
#231=DESCRIPTIVE_REPRESENTATION_ITEM('Generic','Generic');
#232=PROPERTY_DEFINITION('material property','material name',#438);
#233=PROPERTY_DEFINITION('material property','density of part',#438);
#234=DATE_TIME_ROLE('creation_date');
#235=APPLIED_DATE_AND_TIME_ASSIGNMENT(#236,#234,(#438));
#236=DATE_AND_TIME(#237,#238);
#237=CALENDAR_DATE(2020,11,5);
#238=LOCAL_TIME(1,40,16.,#239);
#239=COORDINATED_UNIVERSAL_TIME_OFFSET(0,0,.BEHIND.);
#240=AXIS2_PLACEMENT_3D('placement',#327,#263,#264);
#241=AXIS2_PLACEMENT_3D('',#328,#265,#266);
#242=AXIS2_PLACEMENT_3D('',#367,#276,#277);
#243=AXIS2_PLACEMENT_3D('',#406,#287,#288);
#244=AXIS2_PLACEMENT_3D('',#407,#289,#290);
#245=AXIS2_PLACEMENT_3D('',#408,#291,#292);
#246=AXIS2_PLACEMENT_3D('',#409,#293,#294);
#247=AXIS2_PLACEMENT_3D('',#410,#295,#296);
#248=AXIS2_PLACEMENT_3D('',#411,#297,#298);
#249=AXIS2_PLACEMENT_3D('',#412,#299,#300);
#250=AXIS2_PLACEMENT_3D('',#413,#301,#302);
#251=AXIS2_PLACEMENT_3D('',#414,#303,#304);
#252=AXIS2_PLACEMENT_3D('',#415,#305,#306);
#253=AXIS2_PLACEMENT_3D('',#416,#307,#308);
#254=AXIS2_PLACEMENT_3D('',#417,#309,#310);
#255=AXIS2_PLACEMENT_3D('',#418,#311,#312);
#256=AXIS2_PLACEMENT_3D('',#419,#313,#314);
#257=AXIS2_PLACEMENT_3D('',#420,#315,#316);
#258=AXIS2_PLACEMENT_3D('',#421,#317,#318);
#259=AXIS2_PLACEMENT_3D('',#422,#319,#320);
#260=AXIS2_PLACEMENT_3D('',#423,#321,#322);
#261=AXIS2_PLACEMENT_3D('',#424,#323,#324);
#262=AXIS2_PLACEMENT_3D('',#425,#325,#326);
#263=DIRECTION('axis',(0.,0.,1.));
#264=DIRECTION('refdir',(1.,0.,0.));
#265=DIRECTION('center_axis',(-1.,-3.06645230979049E-16,0.));
#266=DIRECTION('ref_axis',(-3.06645230979049E-16,1.,0.));
#267=DIRECTION('',(-2.14661052968423E-16,0.707106864747814,-0.707106697625271));
#268=DIRECTION('',(-3.06645230979049E-16,1.,0.));
#269=DIRECTION('',(-1.83995186099796E-16,0.707106873044436,0.707106689328648));
#270=DIRECTION('',(0.,0.,1.));
#271=DIRECTION('',(0.,0.,1.));
#272=DIRECTION('',(2.14661050043338E-16,-0.707106874383222,0.707106687989861));
#273=DIRECTION('',(3.06645230979049E-16,-1.,0.));
#274=DIRECTION('',(2.04439098065167E-16,-0.707106864747809,-0.707106697625277));
#275=DIRECTION('',(0.,0.,-1.));
#276=DIRECTION('center_axis',(1.,1.83887739809154E-16,0.));
#277=DIRECTION('ref_axis',(1.83887739809154E-16,-1.,0.));
#278=DIRECTION('',(1.43107368645616E-16,-0.707106864747814,0.707106697625271));
#279=DIRECTION('',(0.,0.,1.));
#280=DIRECTION('',(-1.43107368645617E-16,0.707106864747809,0.707106697625277));
#281=DIRECTION('',(-1.83887739809154E-16,1.,0.));
#282=DIRECTION('',(-1.22663457167622E-16,0.707106874383222,-0.707106687989861));
#283=DIRECTION('',(0.,0.,-1.));
#284=DIRECTION('',(0.,0.,-1.));
#285=DIRECTION('',(1.22663457399864E-16,-0.707106873044436,-0.707106689328648));
#286=DIRECTION('',(1.83887739809154E-16,-1.,0.));
#287=DIRECTION('center_axis',(0.,0.,1.));
#288=DIRECTION('ref_axis',(1.83697019872103E-16,-1.,0.));
#289=DIRECTION('center_axis',(0.,0.,-1.));
#290=DIRECTION('ref_axis',(-1.,0.,0.));
#291=DIRECTION('center_axis',(0.,0.,1.));
#292=DIRECTION('ref_axis',(-1.,0.,0.));
#293=DIRECTION('center_axis',(0.,0.,1.));
#294=DIRECTION('ref_axis',(1.,0.,0.));
#295=DIRECTION('center_axis',(0.,0.,-1.));
#296=DIRECTION('ref_axis',(1.,0.,0.));
#297=DIRECTION('center_axis',(0.,0.,1.));
#298=DIRECTION('ref_axis',(6.12323399573677E-17,-1.,0.));
#299=DIRECTION('center_axis',(0.,0.,1.));
#300=DIRECTION('ref_axis',(-1.,0.,0.));
#301=DIRECTION('center_axis',(0.,0.,-1.));
#302=DIRECTION('ref_axis',(1.83697019872103E-16,-1.,0.));
#303=DIRECTION('center_axis',(0.,0.,-1.));
#304=DIRECTION('ref_axis',(-1.,0.,0.));
#305=DIRECTION('center_axis',(0.,0.,1.));
#306=DIRECTION('ref_axis',(1.,0.,0.));
#307=DIRECTION('center_axis',(0.,0.,1.));
#308=DIRECTION('ref_axis',(1.,0.,0.));
#309=DIRECTION('center_axis',(0.,0.,-1.));
#310=DIRECTION('ref_axis',(6.12323399573677E-17,-1.,0.));
#311=DIRECTION('center_axis',(0.,0.,1.));
#312=DIRECTION('ref_axis',(1.,0.,0.));
#313=DIRECTION('center_axis',(0.,0.,-1.));
#314=DIRECTION('ref_axis',(1.83697019872103E-16,-1.,0.));
#315=DIRECTION('center_axis',(0.,0.,-1.));
#316=DIRECTION('ref_axis',(1.,0.,0.));
#317=DIRECTION('center_axis',(0.,0.,1.));
#318=DIRECTION('ref_axis',(6.12323399573677E-17,-1.,0.));
#319=DIRECTION('center_axis',(0.,0.,-1.));
#320=DIRECTION('ref_axis',(1.,0.,0.));
#321=DIRECTION('center_axis',(0.,0.,-1.));
#322=DIRECTION('ref_axis',(1.83697019872103E-16,-1.,0.));
#323=DIRECTION('center_axis',(0.,0.,-1.));
#324=DIRECTION('ref_axis',(1.,0.,0.));
#325=DIRECTION('center_axis',(0.,0.,-1.));
#326=DIRECTION('ref_axis',(1.83697019872103E-16,-1.,0.));
#327=CARTESIAN_POINT('',(0.,0.,0.));
#328=CARTESIAN_POINT('Origin',(-0.0499999999999995,65.2271155861945,12.7));
#329=CARTESIAN_POINT('',(-0.0500000000000017,72.4249827407643,12.7));
#330=CARTESIAN_POINT('',(-0.0500000000000019,73.0249828825725,12.1));
#331=CARTESIAN_POINT('',(-0.0500000000000018,72.7249828116684,12.4));
#332=CARTESIAN_POINT('',(-0.0500000000000008,69.4624820046765,12.7));
#333=CARTESIAN_POINT('',(-0.0499999999999895,32.6135577930972,12.7));
#334=CARTESIAN_POINT('',(-0.0500000000000008,69.2624819527138,12.5));
#335=CARTESIAN_POINT('',(-0.0500000000000008,69.3624819786951,12.6));
#336=CARTESIAN_POINT('',(-0.0500000000000008,69.2624819527138,9.23140590684478));
#337=CARTESIAN_POINT('',(-0.0500000000000008,69.2624819527138,10.9657029534224));
#338=CARTESIAN_POINT('',(-0.0500000000000006,68.7624818214846,3.34126272333392));
#339=CARTESIAN_POINT('Ctrl Pts',(-0.0500000000000006,68.7624818214846,3.34126272333392));
#340=CARTESIAN_POINT('Ctrl Pts',(-0.0500000000000007,68.9961907650224,3.38010108977513));
#341=CARTESIAN_POINT('Ctrl Pts',(-0.0500000000000007,69.2285133736765,3.44884709978313));
#342=CARTESIAN_POINT('Ctrl Pts',(-0.0500000000000009,69.7774253722761,3.6762138602215));
#343=CARTESIAN_POINT('Ctrl Pts',(-0.050000000000001,70.1529949654979,3.92716139136253));
#344=CARTESIAN_POINT('Ctrl Pts',(-0.0500000000000012,70.6853210731397,4.45948741849722));
#345=CARTESIAN_POINT('Ctrl Pts',(-0.0500000000000013,70.9362686297648,4.83505690820007));
#346=CARTESIAN_POINT('Ctrl Pts',(-0.0500000000000014,71.2243614154695,5.53057431948765));
#347=CARTESIAN_POINT('Ctrl Pts',(-0.0500000000000014,71.3124824715141,5.97358870522123));
#348=CARTESIAN_POINT('Ctrl Pts',(-0.0500000000000014,71.3124824715141,6.35));
#349=CARTESIAN_POINT('Ctrl Pts',(-0.0500000000000014,71.3124824715141,6.72641129477877));
#350=CARTESIAN_POINT('Ctrl Pts',(-0.0500000000000014,71.2243614154695,7.16942568051235));
#351=CARTESIAN_POINT('Ctrl Pts',(-0.0500000000000013,70.9362686297648,7.86494309179993));
#352=CARTESIAN_POINT('Ctrl Pts',(-0.0500000000000012,70.6853210731397,8.24051258150279));
#353=CARTESIAN_POINT('Ctrl Pts',(-0.050000000000001,70.1529949654979,8.77283860863747));
#354=CARTESIAN_POINT('Ctrl Pts',(-0.0500000000000009,69.777425372276,9.0237861397785));
#355=CARTESIAN_POINT('Ctrl Pts',(-0.0500000000000008,69.3759132123925,9.19009789704059));
#356=CARTESIAN_POINT('Ctrl Pts',(-0.0500000000000008,69.3200200065443,9.21143716911799));
#357=CARTESIAN_POINT('Ctrl Pts',(-0.0500000000000008,69.2624819527138,9.23140590684478));
#358=CARTESIAN_POINT('',(-0.0500000000000006,68.7624818214846,0.2));
#359=CARTESIAN_POINT('',(-0.0500000000000006,68.7624818214846,1.67063136166696));
#360=CARTESIAN_POINT('',(-0.0500000000000007,68.9624818742046,0.));
#361=CARTESIAN_POINT('',(-0.0500000000000006,68.8624818478446,0.1));
#362=CARTESIAN_POINT('',(-0.0500000000000017,72.4249827407643,0.));
#363=CARTESIAN_POINT('',(-0.0499999999999895,32.6135577930972,0.));
#364=CARTESIAN_POINT('',(-0.0500000000000019,73.0249828825725,0.600000000000001));
#365=CARTESIAN_POINT('',(-0.0500000000000018,72.7249828116684,0.3));
#366=CARTESIAN_POINT('',(-0.0500000000000019,73.0249828825725,0.));
#367=CARTESIAN_POINT('Origin',(0.0499999999999952,82.6792765289945,12.7));
#368=CARTESIAN_POINT('',(0.0499999999999969,73.0249828825725,12.1));
#369=CARTESIAN_POINT('',(0.0499999999999971,72.4249827407643,12.7));
#370=CARTESIAN_POINT('',(0.049999999999997,72.7249828116684,12.4));
#371=CARTESIAN_POINT('',(0.0499999999999969,73.0249828825725,0.600000000000001));
#372=CARTESIAN_POINT('',(0.0499999999999969,73.0249828825725,0.));
#373=CARTESIAN_POINT('',(0.0499999999999971,72.4249827407643,0.));
#374=CARTESIAN_POINT('',(0.049999999999997,72.7249828116684,0.3));
#375=CARTESIAN_POINT('',(0.0499999999999977,68.9624818742046,0.));
#376=CARTESIAN_POINT('',(0.0500000000000028,41.3396382644972,0.));
#377=CARTESIAN_POINT('',(0.0499999999999977,68.7624818214846,0.2));
#378=CARTESIAN_POINT('',(0.0499999999999977,68.8624818478446,0.1));
#379=CARTESIAN_POINT('',(0.0499999999999977,68.7624818214846,3.34126272333392));
#380=CARTESIAN_POINT('',(0.0499999999999977,68.7624818214846,1.67063136166696));
#381=CARTESIAN_POINT('',(0.0499999999999976,69.2624819527138,9.23140590684478));
#382=CARTESIAN_POINT('Ctrl Pts',(0.0499999999999976,69.2624819527138,9.23140590684478));
#383=CARTESIAN_POINT('Ctrl Pts',(0.0499999999999976,69.3200200065443,9.21143716911799));
#384=CARTESIAN_POINT('Ctrl Pts',(0.0499999999999976,69.3759132123925,9.19009789704059));
#385=CARTESIAN_POINT('Ctrl Pts',(0.0499999999999975,69.777425372276,9.0237861397785));
#386=CARTESIAN_POINT('Ctrl Pts',(0.0499999999999975,70.1529949654979,8.77283860863747));
#387=CARTESIAN_POINT('Ctrl Pts',(0.0499999999999974,70.6853210731397,8.24051258150279));
#388=CARTESIAN_POINT('Ctrl Pts',(0.0499999999999973,70.9362686297648,7.86494309179993));
#389=CARTESIAN_POINT('Ctrl Pts',(0.0499999999999973,71.2243614154695,7.16942568051235));
#390=CARTESIAN_POINT('Ctrl Pts',(0.0499999999999973,71.3124824715141,6.72641129477877));
#391=CARTESIAN_POINT('Ctrl Pts',(0.0499999999999973,71.3124824715141,6.35));
#392=CARTESIAN_POINT('Ctrl Pts',(0.0499999999999973,71.3124824715141,5.97358870522123));
#393=CARTESIAN_POINT('Ctrl Pts',(0.0499999999999973,71.2243614154695,5.53057431948765));
#394=CARTESIAN_POINT('Ctrl Pts',(0.0499999999999973,70.9362686297648,4.83505690820007));
#395=CARTESIAN_POINT('Ctrl Pts',(0.0499999999999974,70.6853210731397,4.45948741849722));
#396=CARTESIAN_POINT('Ctrl Pts',(0.0499999999999975,70.1529949654979,3.92716139136253));
#397=CARTESIAN_POINT('Ctrl Pts',(0.0499999999999975,69.7774253722761,3.6762138602215));
#398=CARTESIAN_POINT('Ctrl Pts',(0.0499999999999976,69.2285133736765,3.44884709978313));
#399=CARTESIAN_POINT('Ctrl Pts',(0.0499999999999977,68.9961907650224,3.38010108977513));
#400=CARTESIAN_POINT('Ctrl Pts',(0.0499999999999977,68.7624818214846,3.34126272333392));
#401=CARTESIAN_POINT('',(0.0499999999999976,69.2624819527138,12.5));
#402=CARTESIAN_POINT('',(0.0499999999999976,69.2624819527138,10.9657029534224));
#403=CARTESIAN_POINT('',(0.0499999999999976,69.4624820046765,12.7));
#404=CARTESIAN_POINT('',(0.0499999999999976,69.3624819786951,12.6));
#405=CARTESIAN_POINT('',(0.0500000000000028,41.3396382644972,12.7));
#406=CARTESIAN_POINT('Origin',(0.,0.,0.3));
#407=CARTESIAN_POINT('Origin',(0.,0.,0.6));
#408=CARTESIAN_POINT('Origin',(0.,0.,0.));
#409=CARTESIAN_POINT('Origin',(0.,0.,0.));
#410=CARTESIAN_POINT('Origin',(0.,0.,0.));
#411=CARTESIAN_POINT('Origin',(0.,0.,0.));
#412=CARTESIAN_POINT('Origin',(0.,0.,12.1));
#413=CARTESIAN_POINT('Origin',(0.,0.,12.4));
#414=CARTESIAN_POINT('Origin',(0.,0.,12.7));
#415=CARTESIAN_POINT('Origin',(0.,0.,12.7));
#416=CARTESIAN_POINT('Origin',(0.,0.,12.7));
#417=CARTESIAN_POINT('Origin',(0.,0.,0.1));
#418=CARTESIAN_POINT('Origin',(0.,0.,0.2));
#419=CARTESIAN_POINT('Origin',(0.,0.,1.67063136166696));
#420=CARTESIAN_POINT('Origin',(0.,0.,3.34126272333392));
#421=CARTESIAN_POINT('Origin',(0.,0.,12.6));
#422=CARTESIAN_POINT('Origin',(0.,0.,12.5));
#423=CARTESIAN_POINT('Origin',(0.,0.,10.9657029534224));
#424=CARTESIAN_POINT('Origin',(0.,0.,9.23140590684478));
#425=CARTESIAN_POINT('Origin',(0.,0.,6.35));
#426=UNCERTAINTY_MEASURE_WITH_UNIT(LENGTH_MEASURE(0.01),#430,
'DISTANCE_ACCURACY_VALUE',
'Maximum model space distance between geometric entities at asserted c
onnectivities');
#427=UNCERTAINTY_MEASURE_WITH_UNIT(LENGTH_MEASURE(0.01),#430,
'DISTANCE_ACCURACY_VALUE',
'Maximum model space distance between geometric entities at asserted c
onnectivities');
#428=(
GEOMETRIC_REPRESENTATION_CONTEXT(3)
GLOBAL_UNCERTAINTY_ASSIGNED_CONTEXT((#426))
GLOBAL_UNIT_ASSIGNED_CONTEXT((#430,#432,#433))
REPRESENTATION_CONTEXT('','3D')
);
#429=(
GEOMETRIC_REPRESENTATION_CONTEXT(3)
GLOBAL_UNCERTAINTY_ASSIGNED_CONTEXT((#427))
GLOBAL_UNIT_ASSIGNED_CONTEXT((#430,#432,#433))
REPRESENTATION_CONTEXT('','3D')
);
#430=(
LENGTH_UNIT()
NAMED_UNIT(*)
SI_UNIT(.MILLI.,.METRE.)
);
#431=(
LENGTH_UNIT()
NAMED_UNIT(*)
SI_UNIT(.CENTI.,.METRE.)
);
#432=(
NAMED_UNIT(*)
PLANE_ANGLE_UNIT()
SI_UNIT($,.RADIAN.)
);
#433=(
NAMED_UNIT(*)
SI_UNIT($,.STERADIAN.)
SOLID_ANGLE_UNIT()
);
#434=SHAPE_DEFINITION_REPRESENTATION(#435,#436);
#435=PRODUCT_DEFINITION_SHAPE('',$,#438);
#436=SHAPE_REPRESENTATION('',(#240),#428);
#437=PRODUCT_DEFINITION_CONTEXT('part definition',#442,'design');
#438=PRODUCT_DEFINITION(
'127 x 146.05 x 12.7mm Printable Bearing Part 1',
'127 x 146.05 x 12.7mm Printable Bearing Part 1',#439,#437);
#439=PRODUCT_DEFINITION_FORMATION('',$,#444);
#440=PRODUCT_RELATED_PRODUCT_CATEGORY(
'127 x 146.05 x 12.7mm Printable Bearing Part 1',
'127 x 146.05 x 12.7mm Printable Bearing Part 1',(#444));
#441=APPLICATION_PROTOCOL_DEFINITION('international standard',
'automotive_design',2009,#442);
#442=APPLICATION_CONTEXT(
'Core Data for Automotive Mechanical Design Process');
#443=PRODUCT_CONTEXT('part definition',#442,'mechanical');
#444=PRODUCT('127 x 146.05 x 12.7mm Printable Bearing Part 1',
'127 x 146.05 x 12.7mm Printable Bearing Part 1',$,(#443));
#445=PRESENTATION_STYLE_ASSIGNMENT((#446));
#446=SURFACE_STYLE_USAGE(.BOTH.,#449);
#447=SURFACE_STYLE_RENDERING_WITH_PROPERTIES($,#453,(#448));
#448=SURFACE_STYLE_TRANSPARENT(0.);
#449=SURFACE_SIDE_STYLE('',(#450,#447));
#450=SURFACE_STYLE_FILL_AREA(#451);
#451=FILL_AREA_STYLE('',(#452));
#452=FILL_AREA_STYLE_COLOUR('',#453);
#453=COLOUR_RGB('',0.749019607843137,0.749019607843137,0.749019607843137);
ENDSEC;
END-ISO-10303-21;
